Übersicht

PJ Harvey

PJ Harvey A Perfect Day Elise (Bass) Tab

A Perfect Day Elise (Bass) Tab:
Intro:
G------------------------------------------
D------------------0---2---0---0-----------
A-2-2-2-2-2-2-2-2-2--2---2---2---2-2-2-2-2-
E------------------------------------------

Verse(w/heavy distortion):
G---------------------------------------------------
D-------0---2---0---0-------------0---2---0---0-----
A-----2---2---2---2---2-2-------2---2---2---2---2-2-
E---------------------------------------------------

Chorus:
"A perfect..."
G---------------------------------------------------
D---------------------------------------------------
A---------------------------------2-2-2-2-2-2-2-2-2-
E-3-3-3-3-3-3-3-3-2-2-2-2-2-2-2-2-------------------
© 2000-2014 www.golyr.de